  0
SECTION
  2
HEADER
  9
$ACADVER
  1
AC1015
  9
$ACADMAINTVER
 70
     6
  9
$DWGCODEPAGE
  3
ANSI_1254
  9
$INSBASE
 10
0.0
 20
0.0
 30
0.0
  9
$EXTMIN
 10
0.0
 20
0.0
 30
0.0
  9
$EXTMAX
 10
279.4
 20
215.9
 30
0.0
  9
$LIMMIN
 10
0.0
 20
0.0
  9
$LIMMAX
 10
279.4
 20
215.9
  9
$ORTHOMODE
 70
     0
  9
$REGENMODE
 70
     1
  9
$FILLMODE
 70
     1
  9
$QTEXTMODE
 70
     0
  9
$MIRRTEXT
 70
     1
  9
$LTSCALE
 40
1.0
  9
$ATTMODE
 70
     1
  9
$TEXTSIZE
 40
3.5
  9
$TRACEWID
 40
1.0
  9
$TEXTSTYLE
  7
Standard
  9
$CLAYER
  8
0
  9
$CELTYPE
  6
ByLayer
  9
$CECOLOR
 62
   256
  9
$CELTSCALE
 40
1.0
  9
$DISPSILH
 70
     0
  9
$DIMSCALE
 40
1.0
  9
$DIMASZ
 40
3.5
  9
$DIMEXO
 40
1.0
  9
$DIMDLI
 40
3.75
  9
$DIMRND
 40
0.0
  9
$DIMDLE
 40
0.0
  9
$DIMEXE
 40
1.0
  9
$DIMTP
 40
0.0
  9
$DIMTM
 40
0.0
  9
$DIMTXT
 40
3.5
  9
$DIMCEN
 40
2.5
  9
$DIMTSZ
 40
0.0
  9
$DIMTOL
 70
     0
  9
$DIMLIM
 70
     0
  9
$DIMTIH
 70
     1
  9
$DIMTOH
 70
     1
  9
$DIMSE1
 70
     0
  9
$DIMSE2
 70
     0
  9
$DIMTAD
 70
     1
  9
$DIMZIN
 70
     0
  9
$DIMBLK
  1

  9
$DIMASO
 70
     1
  9
$DIMSHO
 70
     1
  9
$DIMPOST
  1

  9
$DIMAPOST
  1

  9
$DIMALT
 70
     0
  9
$DIMALTD
 70
     3
  9
$DIMALTF
 40
0.0393700787
  9
$DIMLFAC
 40
1.0
  9
$DIMTOFL
 70
     1
  9
$DIMTVP
 40
0.0
  9
$DIMTIX
 70
     0
  9
$DIMSOXD
 70
     0
  9
$DIMSAH
 70
     0
  9
$DIMBLK1
  1

  9
$DIMBLK2
  1

  9
$DIMSTYLE
  2
ISO-25
  9
$DIMCLRD
 70
     0
  9
$DIMCLRE
 70
     0
  9
$DIMCLRT
 70
     0
  9
$DIMTFAC
 40
1.0
  9
$DIMGAP
 40
1.524
  9
$DIMJUST
 70
     0
  9
$DIMSD1
 70
     0
  9
$DIMSD2
 70
     0
  9
$DIMTOLJ
 70
     0
  9
$DIMTZIN
 70
     0
  9
$DIMALTZ
 70
     0
  9
$DIMALTTZ
 70
     0
  9
$DIMUPT
 70
     0
  9
$DIMDEC
 70
     2
  9
$DIMTDEC
 70
     2
  9
$DIMALTU
 70
     2
  9
$DIMALTTD
 70
     3
  9
$DIMTXSTY
  7
Standard
  9
$DIMAUNIT
 70
     0
  9
$DIMADEC
 70
     2
  9
$DIMALTRND
 40
0.0
  9
$DIMAZIN
 70
     0
  9
$DIMDSEP
 70
    44
  9
$DIMATFIT
 70
     3
  9
$DIMFRAC
 70
     0
  9
$DIMLDRBLK
  1

  9
$DIMLUNIT
 70
     2
  9
$DIMLWD
 70
    -2
  9
$DIMLWE
 70
    -2
  9
$DIMTMOVE
 70
     0
  9
$LUNITS
 70
     2
  9
$LUPREC
 70
     2
  9
$SKETCHINC
 40
1.0
  9
$FILLETRAD
 40
10.0
  9
$AUNITS
 70
     0
  9
$AUPREC
 70
     2
  9
$MENU
  1
.
  9
$ELEVATION
 40
0.0
  9
$PELEVATION
 40
0.0
  9
$THICKNESS
 40
0.0
  9
$LIMCHECK
 70
     0
  9
$CHAMFERA
 40
0.0
  9
$CHAMFERB
 40
0.0
  9
$CHAMFERC
 40
0.0
  9
$CHAMFERD
 40
0.0
  9
$SKPOLY
 70
     0
  9
$TDCREATE
 40
2459741.606152535
  9
$TDUCREATE
 40
2459741.481152535
  9
$TDUPDATE
 40
2459741.60615272
  9
$TDUUPDATE
 40
2459741.48115272
  9
$TDINDWG
 40
0.0000000116
  9
$TDUSRTIMER
 40
0.0000000116
  9
$USRTIMER
 70
     1
  9
$ANGBASE
 50
0.0
  9
$ANGDIR
 70
     0
  9
$PDMODE
 70
     0
  9
$PDSIZE
 40
-1.0
  9
$PLINEWID
 40
0.0
  9
$SPLFRAME
 70
     0
  9
$SPLINETYPE
 70
     6
  9
$SPLINESEGS
 70
     8
  9
$HANDSEED
  5
102
  9
$SURFTAB1
 70
     6
  9
$SURFTAB2
 70
     6
  9
$SURFTYPE
 70
     6
  9
$SURFU
 70
     6
  9
$SURFV
 70
     6
  9
$UCSBASE
  2

  9
$UCSNAME
  2

  9
$UCSORG
 10
0.0
 20
0.0
 30
0.0
  9
$UCSXDIR
 10
1.0
 20
0.0
 30
0.0
  9
$UCSYDIR
 10
0.0
 20
1.0
 30
0.0
  9
$UCSORTHOREF
  2

  9
$UCSORTHOVIEW
 70
     0
  9
$UCSORGTOP
 10
0.0
 20
0.0
 30
0.0
  9
$UCSORGBOTTOM
 10
0.0
 20
0.0
 30
0.0
  9
$UCSORGLEFT
 10
0.0
 20
0.0
 30
0.0
  9
$UCSORGRIGHT
 10
0.0
 20
0.0
 30
0.0
  9
$UCSORGFRONT
 10
0.0
 20
0.0
 30
0.0
  9
$UCSORGBACK
 10
0.0
 20
0.0
 30
0.0
  9
$PUCSBASE
  2

  9
$PUCSNAME
  2

  9
$PUCSORG
 10
0.0
 20
0.0
 30
0.0
  9
$PUCSXDIR
 10
1.0
 20
0.0
 30
0.0
  9
$PUCSYDIR
 10
0.0
 20
1.0
 30
0.0
  9
$PUCSORTHOREF
  2

  9
$PUCSORTHOVIEW
 70
     0
  9
$PUCSORGTOP
 10
0.0
 20
0.0
 30
0.0
  9
$PUCSORGBOTTOM
 10
0.0
 20
0.0
 30
0.0
  9
$PUCSORGLEFT
 10
0.0
 20
0.0
 30
0.0
  9
$PUCSORGRIGHT
 10
0.0
 20
0.0
 30
0.0
  9
$PUCSORGFRONT
 10
0.0
 20
0.0
 30
0.0
  9
$PUCSORGBACK
 10
0.0
 20
0.0
 30
0.0
  9
$USERI1
 70
     0
  9
$USERI2
 70
     0
  9
$USERI3
 70
     0
  9
$USERI4
 70
     0
  9
$USERI5
 70
     0
  9
$USERR1
 40
0.0
  9
$USERR2
 40
0.0
  9
$USERR3
 40
0.0
  9
$USERR4
 40
0.0
  9
$USERR5
 40
0.0
  9
$WORLDVIEW
 70
     1
  9
$SHADEDGE
 70
     3
  9
$SHADEDIF
 70
    70
  9
$TILEMODE
 70
     1
  9
$MAXACTVP
 70
    64
  9
$PINSBASE
 10
0.0
 20
0.0
 30
0.0
  9
$PLIMCHECK
 70
     0
  9
$PEXTMIN
 10
1.0000000000E+20
 20
1.0000000000E+20
 30
1.0000000000E+20
  9
$PEXTMAX
 10
-1.0000000000E+20
 20
-1.0000000000E+20
 30
-1.0000000000E+20
  9
$PLIMMIN
 10
0.0
 20
0.0
  9
$PLIMMAX
 10
420.0
 20
297.0
  9
$UNITMODE
 70
     0
  9
$VISRETAIN
 70
     1
  9
$PLINEGEN
 70
     0
  9
$PSLTSCALE
 70
     1
  9
$TREEDEPTH
 70
  3020
  9
$CMLSTYLE
  2
Standard
  9
$CMLJUST
 70
     0
  9
$CMLSCALE
 40
20.0
  9
$PROXYGRAPHICS
 70
     1
  9
$MEASUREMENT
 70
     1
  9
$CELWEIGHT
370
    -1
  9
$ENDCAPS
280
     0
  9
$JOINSTYLE
280
     0
  9
$LWDISPLAY
290
     1
  9
$INSUNITS
 70
     4
  9
$HYPERLINKBASE
  1

  9
$STYLESHEET
  1

  9
$XEDIT
290
     1
  9
$CEPSNTYPE
380
     0
  9
$PSTYLEMODE
290
     1
  9
$FINGERPRINTGUID
  2
{9ef6b11c-0fb5-471b-9f79-6365733c826a}
  9
$VERSIONGUID
  2
{FAEB1C32-E019-11D5-929B-00C0DF256EC4}
  9
$EXTNAMES
290
     1
  9
$PSVPSCALE
 40
0.0
  9
$OLESTARTUP
290
     0
  0
ENDSEC
  0
SECTION
  2
CLASSES
  0
CLASS
  1
ACDBDICTIONARYWDFLT
  2
AcDbDictionaryWithDefault
  3
ObjectDBX Classes
 90
        0
280
     0
281
     0
  0
CLASS
  1
VISUALSTYLE
  2
AcDbVisualStyle
  3
ObjectDBX Classes
 90
     4095
280
     0
281
     0
  0
CLASS
  1
MATERIAL
  2
AcDbMaterial
  3
ObjectDBX Classes
 90
     1153
280
     0
281
     0
  0
CLASS
  1
SCALE
  2
AcDbScale
  3
ObjectDBX Classes
 90
     1153
280
     0
281
     0
  0
CLASS
  1
TABLESTYLE
  2
AcDbTableStyle
  3
ObjectDBX Classes
 90
     4095
280
     0
281
     0
  0
CLASS
  1
MLEADERSTYLE
  2
AcDbMLeaderStyle
  3
ACDB_MLEADERSTYLE_CLASS
 90
     4095
280
     0
281
     0
  0
CLASS
  1
SUN
  2
AcDbSun
  3
SCENEOE
 90
     1153
280
     0
281
     0
  0
CLASS
  1
ACDBPLACEHOLDER
  2
AcDbPlaceHolder
  3
ObjectDBX Classes
 90
        0
280
     0
281
     0
  0
CLASS
  1
LAYOUT
  2
AcDbLayout
  3
ObjectDBX Classes
 90
        0
280
     0
281
     0
  0
ENDSEC
  0
SECTION
  2
TABLES
  0
TABLE
  2
VPORT
  5
8
330
0
100
AcDbSymbolTable
 70
     1
  0
VPORT
  5
29
330
8
100
AcDbSymbolTableRecord
100
AcDbViewportTableRecord
  2
*Active
 70
     0
 10
0.0
 20
0.0
 11
1.0
 21
1.0
 12
139.7
 22
107.95
 13
0.0
 23
0.0
 14
10.0
 24
10.0
 15
10.0
 25
10.0
 16
0.0
 26
0.0
 36
1.0
 17
0.0
 27
0.0
 37
0.0
 40
215.9
 41
1.2941176471
 42
50.0
 43
0.0
 44
0.0
 50
0.0
 51
0.0
 71
     0
 72
  2000
 73
     1
 74
     3
 75
     0
 76
     0
 77
     0
 78
     0
281
     0
 65
     1
110
0.0
120
0.0
130
0.0
111
1.0
121
0.0
131
0.0
112
0.0
122
1.0
132
0.0
 79
     0
146
0.0
  0
ENDTAB
  0
TABLE
  2
LTYPE
  5
5
330
0
100
AcDbSymbolTable
 70
     6
  0
LTYPE
  5
14
330
5
100
AcDbSymbolTableRecord
100
AcDbLinetypeTableRecord
  2
ByBlock
 70
     0
  3

 72
    65
 73
     0
 40
0.0
  0
LTYPE
  5
15
330
5
100
AcDbSymbolTableRecord
100
AcDbLinetypeTableRecord
  2
ByLayer
 70
     0
  3

 72
    65
 73
     0
 40
0.0
  0
LTYPE
  5
16
330
5
100
AcDbSymbolTableRecord
100
AcDbLinetypeTableRecord
  2
Continuous
 70
     0
  3
Solid line
 72
    65
 73
     0
 40
0.0
  0
LTYPE
  5
6E
330
5
100
AcDbSymbolTableRecord
100
AcDbLinetypeTableRecord
  2
HIDDEN
 70
     0
  3
Hidden __ __ __ __ __ __ __ __ __ __ __ __ __ __
 72
    65
 73
     2
 40
1.905
 49
1.27
 74
     0
 49
-0.635
 74
     0
  0
LTYPE
  5
6F
330
5
100
AcDbSymbolTableRecord
100
AcDbLinetypeTableRecord
  2
PHANTOM
 70
     0
  3
Phantom ______  __  __  ______  __  __  ______
 72
    65
 73
     6
 40
12.7
 49
6.35
 74
     0
 49
-1.27
 74
     0
 49
1.27
 74
     0
 49
-1.27
 74
     0
 49
1.27
 74
     0
 49
-1.27
 74
     0
  0
LTYPE
  5
70
330
5
100
AcDbSymbolTableRecord
100
AcDbLinetypeTableRecord
  2
CENTER
 70
     0
  3
Center ____ _ ____ _ ____ _ ____ _ ____ _ ____
 72
    65
 73
     4
 40
10.16
 49
6.35
 74
     0
 49
-1.27
 74
     0
 49
1.27
 74
     0
 49
-1.27
 74
     0
  0
LTYPE
  5
71
330
5
100
AcDbSymbolTableRecord
100
AcDbLinetypeTableRecord
  2
CENTERX2
 70
     0
  3
Center (2x) ________  __  ________  __  _____
 72
    65
 73
     4
 40
20.32
 49
12.7
 74
     0
 49
-2.54
 74
     0
 49
2.54
 74
     0
 49
-2.54
 74
     0
  0
LTYPE
  5
72
330
5
100
AcDbSymbolTableRecord
100
AcDbLinetypeTableRecord
  2
DOT2
 70
     0
  3
Dot (.5x) ........................................
 72
    65
 73
     2
 40
0.635
 49
0.0
 74
     0
 49
-0.635
 74
     0
  0
ENDTAB
  0
TABLE
  2
LAYER
  5
2
330
0
100
AcDbSymbolTable
 70
    17
  0
LAYER
  5
10
330
2
100
AcDbSymbolTableRecord
100
AcDbLayerTableRecord
  2
0
 70
     0
 62
     7
  6
Continuous
370
    -3
390
F
  0
LAYER
  5
73
330
2
100
AcDbSymbolTableRecord
100
AcDbLayerTableRecord
  2
FORMAT
 70
     0
 62
     7
  6
Continuous
370
    -3
390
F
  0
LAYER
  5
74
330
2
100
AcDbSymbolTableRecord
100
AcDbLayerTableRecord
  2
YARDIMCI_GEOMETRI
 70
     0
 62
    -6
  6
Continuous
290
     0
370
    -3
390
F
  0
LAYER
  5
75
330
2
100
AcDbSymbolTableRecord
100
AcDbLayerTableRecord
  2
SAYFA_CERCEVESI
 70
     0
 62
     7
  6
Continuous
370
    25
390
F
  0
LAYER
  5
76
330
2
100
AcDbSymbolTableRecord
100
AcDbLayerTableRecord
  2
ANTET
 70
     0
 62
     7
  6
Continuous
370
    -3
390
F
  0
LAYER
  5
77
330
2
100
AcDbSymbolTableRecord
100
AcDbLayerTableRecord
  2
OLCU
 70
     0
 62
   150
  6
Continuous
370
    -3
390
F
  0
LAYER
  5
78
330
2
100
AcDbSymbolTableRecord
100
AcDbLayerTableRecord
  2
METIN
 70
     0
 62
    96
  6
Continuous
370
    -3
390
F
  0
LAYER
  5
79
330
2
100
AcDbSymbolTableRecord
100
AcDbLayerTableRecord
  2
BALON
 70
     0
 62
     5
  6
Continuous
370
    -3
390
F
  0
LAYER
  5
7A
330
2
100
AcDbSymbolTableRecord
100
AcDbLayerTableRecord
  2
VURGU
 70
     0
 62
     7
  6
Continuous
370
    -3
390
F
  0
LAYER
  5
7B
330
2
100
AcDbSymbolTableRecord
100
AcDbLayerTableRecord
  2
SILIK
 70
     0
 62
     7
  6
Continuous
370
    -3
390
F
  0
LAYER
  5
7C
330
2
100
AcDbSymbolTableRecord
100
AcDbLayerTableRecord
  2
MODEL
 70
     0
 62
     7
  6
Continuous
370
    -3
390
F
  0
LAYER
  5
7D
330
2
100
AcDbSymbolTableRecord
100
AcDbLayerTableRecord
  2
DETAYLANDıRMA
 70
     0
 62
   190
  6
Continuous
370
    -3
390
F
  0
LAYER
  5
7E
330
2
100
AcDbSymbolTableRecord
100
AcDbLayerTableRecord
  2
TOLERANS
 70
     0
 62
   230
  6
Continuous
370
    -3
390
F
  0
LAYER
  5
7F
330
2
100
AcDbSymbolTableRecord
100
AcDbLayerTableRecord
  2
MERKEZ_CIZGILERI
 70
     0
 62
    30
  6
Continuous
370
    -3
390
F
  0
LAYER
  5
80
330
2
100
AcDbSymbolTableRecord
100
AcDbLayerTableRecord
  2
KESIT-DETAY_CIZGILERI
 70
     0
 62
     7
  6
Continuous
370
    -3
390
F
  0
LAYER
  5
81
330
2
100
AcDbSymbolTableRecord
100
AcDbLayerTableRecord
  2
\U+041E\U+0421\U+0415\U+0412\U+042B\U+0415
 70
     0
 62
     7
  6
Continuous
370
    -3
390
F
  0
LAYER
  5
82
330
2
100
AcDbSymbolTableRecord
100
AcDbLayerTableRecord
  2
\U+0412\U+041E\U+0414\U+042F\U+041D\U+042B\U+0415_\U+0417\U+041D\U+0410\U+041A\U+0418
 70
     0
 62
    11
  6
Continuous
370
    -3
390
F
  0
ENDTAB
  0
TABLE
  2
STYLE
  5
3
330
0
100
AcDbSymbolTable
 70
     1
  0
STYLE
  5
11
330
3
100
AcDbSymbolTableRecord
100
AcDbTextStyleTableRecord
  2
Standard
 70
     0
 40
0.0
 41
1.0
 50
0.0
 71
     0
 42
3.5
  3
txt
  4

  0
ENDTAB
  0
TABLE
  2
VIEW
  5
6
330
0
100
AcDbSymbolTable
 70
     0
  0
ENDTAB
  0
TABLE
  2
UCS
  5
7
330
0
100
AcDbSymbolTable
 70
     0
  0
ENDTAB
  0
TABLE
  2
APPID
  5
9
330
0
100
AcDbSymbolTable
 70
     1
  0
APPID
  5
12
330
9
100
AcDbSymbolTableRecord
100
AcDbRegAppTableRecord
  2
ACAD
 70
     0
  0
ENDTAB
  0
TABLE
  2
DIMSTYLE
  5
A
330
0
100
AcDbSymbolTable
 70
     1
100
AcDbDimStyleTable
  0
DIMSTYLE
105
27
330
A
100
AcDbSymbolTableRecord
100
AcDbDimStyleTableRecord
  2
ISO-25
 70
     0
 41
2.5
 42
0.625
 43
3.75
 44
1.25
 73
     0
 74
     0
 77
     1
 78
     8
140
2.5
141
2.5
143
0.0393700787
147
0.625
171
     3
172
     1
178
     0
271
     2
272
     2
274
     3
278
    44
283
     0
284
     8
340
11
  0
ENDTAB
  0
TABLE
  2
BLOCK_RECORD
  5
1
330
0
100
AcDbSymbolTable
 70
     5
  0
BLOCK_RECORD
  5
1F
330
1
100
AcDbSymbolTableRecord
100
AcDbBlockTableRecord
  2
*Model_Space
340
22
  0
BLOCK_RECORD
  5
1B
330
1
100
AcDbSymbolTableRecord
100
AcDbBlockTableRecord
  2
*Paper_Space
340
1E
  0
BLOCK_RECORD
  5
23
330
1
100
AcDbSymbolTableRecord
100
AcDbBlockTableRecord
  2
*Paper_Space0
340
26
  0
BLOCK_RECORD
  5
8B
330
1
100
AcDbSymbolTableRecord
100
AcDbBlockTableRecord
  2
SW_CENTERMARKSYMBOL_0
340
0
102
{BLKREFS
331
96
102
}
  0
BLOCK_RECORD
  5
A9
330
1
100
AcDbSymbolTableRecord
100
AcDbBlockTableRecord
  2
SW_CENTERMARKSYMBOL_1
340
0
102
{BLKREFS
331
B4
102
}
  0
BLOCK_RECORD
  5
D9
330
1
100
AcDbSymbolTableRecord
100
AcDbBlockTableRecord
  2
SW_CENTERMARKSYMBOL_2
340
0
102
{BLKREFS
331
E4
102
}
  0
BLOCK_RECORD
  5
E5
330
1
100
AcDbSymbolTableRecord
100
AcDbBlockTableRecord
  2
SW_CENTERMARKSYMBOL_3
340
0
102
{BLKREFS
331
F0
102
}
  0
ENDTAB
  0
ENDSEC
  0
SECTION
  2
BLOCKS
  0
BLOCK
  5
20
330
1F
100
AcDbEntity
  8
0
100
AcDbBlockBegin
  2
*Model_Space
 70
     0
 10
0.0
 20
0.0
 30
0.0
  3
*Model_Space
  1

  0
ENDBLK
  5
21
330
1F
100
AcDbEntity
  8
0
100
AcDbBlockEnd
  0
BLOCK
  5
1C
330
1B
100
AcDbEntity
 67
     1
  8
0
100
AcDbBlockBegin
  2
*Paper_Space
 70
     0
 10
0.0
 20
0.0
 30
0.0
  3
*Paper_Space
  1

  0
ENDBLK
  5
1D
330
1B
100
AcDbEntity
 67
     1
  8
0
100
AcDbBlockEnd
  0
BLOCK
  5
24
330
23
100
AcDbEntity
  8
0
100
AcDbBlockBegin
  2
*Paper_Space0
 70
     0
 10
0.0
 20
0.0
 30
0.0
  3
*Paper_Space0
  1

  0
ENDBLK
  5
25
330
23
100
AcDbEntity
  8
0
100
AcDbBlockEnd
  0
BLOCK
  5
8C
330
8B
100
AcDbEntity
  8
0
100
AcDbBlockBegin
  2
SW_CENTERMARKSYMBOL_0
 70
     0
 10
0.0
 20
0.0
 30
0.0
  3
SW_CENTERMARKSYMBOL_0
  1

  0
LINE
  5
8E
330
8B
100
AcDbEntity
  8
FORMAT
 62
     0
100
AcDbLine
 10
0.0
 20
0.0
 30
0.0
 11
0.0
 21
2.5
 31
0.0
  0
LINE
  5
8F
330
8B
100
AcDbEntity
  8
FORMAT
 62
     0
100
AcDbLine
 10
0.0
 20
0.0
 30
0.0
 11
-2.5
 21
0.0
 31
0.0
  0
LINE
  5
90
330
8B
100
AcDbEntity
  8
FORMAT
 62
     0
100
AcDbLine
 10
0.0
 20
0.0
 30
0.0
 11
0.0
 21
-2.5
 31
0.0
  0
LINE
  5
91
330
8B
100
AcDbEntity
  8
FORMAT
 62
     0
100
AcDbLine
 10
0.0
 20
0.0
 30
0.0
 11
2.5
 21
0.0
 31
0.0
  0
LINE
  5
92
330
8B
100
AcDbEntity
  8
FORMAT
 62
     0
100
AcDbLine
 10
0.0
 20
5.0
 30
0.0
 11
0.0
 21
81.5
 31
0.0
  0
LINE
  5
93
330
8B
100
AcDbEntity
  8
FORMAT
 62
     0
100
AcDbLine
 10
-5.0
 20
0.0
 30
0.0
 11
-81.5
 21
0.0
 31
0.0
  0
LINE
  5
94
330
8B
100
AcDbEntity
  8
FORMAT
 62
     0
100
AcDbLine
 10
0.0
 20
-5.0
 30
0.0
 11
0.0
 21
-81.5
 31
0.0
  0
LINE
  5
95
330
8B
100
AcDbEntity
  8
FORMAT
 62
     0
100
AcDbLine
 10
5.0
 20
0.0
 30
0.0
 11
81.5
 21
0.0
 31
0.0
  0
ENDBLK
  5
8D
330
8B
100
AcDbEntity
  8
0
100
AcDbBlockEnd
  0
BLOCK
  5
AA
330
A9
100
AcDbEntity
  8
0
100
AcDbBlockBegin
  2
SW_CENTERMARKSYMBOL_1
 70
     0
 10
0.0
 20
0.0
 30
0.0
  3
SW_CENTERMARKSYMBOL_1
  1

  0
LINE
  5
AC
330
A9
100
AcDbEntity
  8
FORMAT
 62
     0
100
AcDbLine
 10
0.0
 20
0.0
 30
0.0
 11
0.0
 21
2.5
 31
0.0
  0
LINE
  5
AD
330
A9
100
AcDbEntity
  8
FORMAT
 62
     0
100
AcDbLine
 10
0.0
 20
0.0
 30
0.0
 11
-2.5
 21
0.0
 31
0.0
  0
LINE
  5
AE
330
A9
100
AcDbEntity
  8
FORMAT
 62
     0
100
AcDbLine
 10
0.0
 20
0.0
 30
0.0
 11
0.0
 21
-2.5
 31
0.0
  0
LINE
  5
AF
330
A9
100
AcDbEntity
  8
FORMAT
 62
     0
100
AcDbLine
 10
0.0
 20
0.0
 30
0.0
 11
2.5
 21
0.0
 31
0.0
  0
LINE
  5
B0
330
A9
100
AcDbEntity
  8
FORMAT
 62
     0
100
AcDbLine
 10
0.0
 20
5.0
 30
0.0
 11
0.0
 21
34.0
 31
0.0
  0
LINE
  5
B1
330
A9
100
AcDbEntity
  8
FORMAT
 62
     0
100
AcDbLine
 10
-5.0
 20
0.0
 30
0.0
 11
-34.0
 21
0.0
 31
0.0
  0
LINE
  5
B2
330
A9
100
AcDbEntity
  8
FORMAT
 62
     0
100
AcDbLine
 10
0.0
 20
-5.0
 30
0.0
 11
0.0
 21
-34.0
 31
0.0
  0
LINE
  5
B3
330
A9
100
AcDbEntity
  8
FORMAT
 62
     0
100
AcDbLine
 10
5.0
 20
0.0
 30
0.0
 11
34.0
 21
0.0
 31
0.0
  0
ENDBLK
  5
AB
330
A9
100
AcDbEntity
  8
0
100
AcDbBlockEnd
  0
BLOCK
  5
DA
330
D9
100
AcDbEntity
  8
0
100
AcDbBlockBegin
  2
SW_CENTERMARKSYMBOL_2
 70
     0
 10
0.0
 20
0.0
 30
0.0
  3
SW_CENTERMARKSYMBOL_2
  1

  0
LINE
  5
DC
330
D9
100
AcDbEntity
  8
FORMAT
 62
     0
100
AcDbLine
 10
0.0
 20
0.0
 30
0.0
 11
0.0
 21
2.5
 31
0.0
  0
LINE
  5
DD
330
D9
100
AcDbEntity
  8
FORMAT
 62
     0
100
AcDbLine
 10
0.0
 20
0.0
 30
0.0
 11
-2.5
 21
0.0
 31
0.0
  0
LINE
  5
DE
330
D9
100
AcDbEntity
  8
FORMAT
 62
     0
100
AcDbLine
 10
0.0
 20
0.0
 30
0.0
 11
0.0
 21
-2.5
 31
0.0
  0
LINE
  5
DF
330
D9
100
AcDbEntity
  8
FORMAT
 62
     0
100
AcDbLine
 10
0.0
 20
0.0
 30
0.0
 11
2.5
 21
0.0
 31
0.0
  0
LINE
  5
E0
330
D9
100
AcDbEntity
  8
FORMAT
 62
     0
100
AcDbLine
 10
0.0
 20
5.0
 30
0.0
 11
0.0
 21
9.5
 31
0.0
  0
LINE
  5
E1
330
D9
100
AcDbEntity
  8
FORMAT
 62
     0
100
AcDbLine
 10
-5.0
 20
0.0
 30
0.0
 11
-9.5
 21
0.0
 31
0.0
  0
LINE
  5
E2
330
D9
100
AcDbEntity
  8
FORMAT
 62
     0
100
AcDbLine
 10
0.0
 20
-5.0
 30
0.0
 11
0.0
 21
-9.5
 31
0.0
  0
LINE
  5
E3
330
D9
100
AcDbEntity
  8
FORMAT
 62
     0
100
AcDbLine
 10
5.0
 20
0.0
 30
0.0
 11
9.5
 21
0.0
 31
0.0
  0
ENDBLK
  5
DB
330
D9
100
AcDbEntity
  8
0
100
AcDbBlockEnd
  0
BLOCK
  5
E6
330
E5
100
AcDbEntity
  8
0
100
AcDbBlockBegin
  2
SW_CENTERMARKSYMBOL_3
 70
     0
 10
0.0
 20
0.0
 30
0.0
  3
SW_CENTERMARKSYMBOL_3
  1

  0
LINE
  5
E8
330
E5
100
AcDbEntity
  8
FORMAT
 62
     0
100
AcDbLine
 10
0.0
 20
0.0
 30
0.0
 11
0.0
 21
2.5
 31
0.0
  0
LINE
  5
E9
330
E5
100
AcDbEntity
  8
FORMAT
 62
     0
100
AcDbLine
 10
0.0
 20
0.0
 30
0.0
 11
-2.5
 21
0.0
 31
0.0
  0
LINE
  5
EA
330
E5
100
AcDbEntity
  8
FORMAT
 62
     0
100
AcDbLine
 10
0.0
 20
0.0
 30
0.0
 11
0.0
 21
-2.5
 31
0.0
  0
LINE
  5
EB
330
E5
100
AcDbEntity
  8
FORMAT
 62
     0
100
AcDbLine
 10
0.0
 20
0.0
 30
0.0
 11
2.5
 21
0.0
 31
0.0
  0
LINE
  5
EC
330
E5
100
AcDbEntity
  8
FORMAT
 62
     0
100
AcDbLine
 10
0.0
 20
5.0
 30
0.0
 11
0.0
 21
9.5
 31
0.0
  0
LINE
  5
ED
330
E5
100
AcDbEntity
  8
FORMAT
 62
     0
100
AcDbLine
 10
-5.0
 20
0.0
 30
0.0
 11
-9.5
 21
0.0
 31
0.0
  0
LINE
  5
EE
330
E5
100
AcDbEntity
  8
FORMAT
 62
     0
100
AcDbLine
 10
0.0
 20
-5.0
 30
0.0
 11
0.0
 21
-9.5
 31
0.0
  0
LINE
  5
EF
330
E5
100
AcDbEntity
  8
FORMAT
 62
     0
100
AcDbLine
 10
5.0
 20
0.0
 30
0.0
 11
9.5
 21
0.0
 31
0.0
  0
ENDBLK
  5
E7
330
E5
100
AcDbEntity
  8
0
100
AcDbBlockEnd
  0
ENDSEC
  0
SECTION
  2
ENTITIES
  0
LINE
  5
83
330
1F
100
AcDbEntity
  8
0
  6
Continuous
 62
     7
370
    25
100
AcDbLine
 10
110.1168774785
 20
181.8933009798
 30
0.0
 11
110.1168774785
 21
204.696221825
 31
0.0
  0
LINE
  5
84
330
1F
100
AcDbEntity
  8
0
  6
Continuous
 62
     7
370
    25
100
AcDbLine
 10
96.1168774785
 20
204.696221825
 30
0.0
 11
96.1168774785
 21
181.8859386552
 31
0.0
  0
LINE
  5
85
330
1F
100
AcDbEntity
  8
0
  6
Continuous
 62
     7
370
    25
100
AcDbLine
 10
175.6146534109
 20
71.696221825
 30
0.0
 11
253.1168774785
 21
71.696221825
 31
0.0
  0
LINE
  5
86
330
1F
100
AcDbEntity
  8
0
  6
Continuous
 62
     7
370
    25
100
AcDbLine
 10
253.1168774785
 20
134.696221825
 30
0.0
 11
175.6060856668
 21
134.696221825
 31
0.0
  0
CIRCLE
  5
87
330
1F
100
AcDbEntity
  8
0
  6
Continuous
 62
     7
370
    25
100
AcDbCircle
 10
103.1168774785
 20
103.196221825
 30
0.0
 40
62.5
  0
CIRCLE
  5
88
330
1F
100
AcDbEntity
  8
0
  6
Continuous
 62
     7
370
    25
100
AcDbCircle
 10
103.1168774785
 20
103.196221825
 30
0.0
 40
79.0
  0
LINE
  5
89
330
1F
100
AcDbEntity
  8
0
  6
Continuous
 62
     7
370
    25
100
AcDbLine
 10
110.1168774785
 20
204.696221825
 30
0.0
 11
96.1168774785
 21
204.696221825
 31
0.0
  0
LINE
  5
8A
330
1F
100
AcDbEntity
  8
0
  6
Continuous
 62
     7
370
    25
100
AcDbLine
 10
253.1168774785
 20
134.696221825
 30
0.0
 11
253.1168774785
 21
71.696221825
 31
0.0
  0
INSERT
  5
96
330
1F
100
AcDbEntity
  8
FORMAT
 62
     7
100
AcDbBlockReference
  2
SW_CENTERMARKSYMBOL_0
 10
103.1168774785
 20
103.196221825
 30
0.0
  0
LINE
  5
97
330
1F
100
AcDbEntity
  8
0
  6
Continuous
 62
     7
370
    25
100
AcDbLine
 10
-358.6896368352
 20
182.196221825
 30
0.0
 11
-359.776444819
 21
182.196221825
 31
0.0
  0
LINE
  5
98
330
1F
100
AcDbEntity
  8
0
  6
Continuous
 62
     7
370
    25
100
AcDbLine
 10
-106.6896368352
 20
182.196221825
 30
0.0
 11
-344.776444819
 21
182.196221825
 31
0.0
  0
LINE
  5
99
330
1F
100
AcDbEntity
  8
0
  6
Continuous
 62
     7
370
    25
100
AcDbLine
 10
-91.776444819
 20
182.196221825
 30
0.0
 11
-92.776444819
 21
182.196221825
 31
0.0
  0
LINE
  5
9A
330
1F
100
AcDbEntity
  8
0
  6
Continuous
 62
     7
370
    25
100
AcDbLine
 10
-359.776444819
 20
24.196221825
 30
0.0
 11
-91.776444819
 21
24.196221825
 31
0.0
  0
LINE
  5
9B
330
1F
100
AcDbEntity
  8
0
  6
Continuous
 62
     7
370
    25
100
AcDbLine
 10
-92.776444819
 20
182.196221825
 30
0.0
 11
-92.776444819
 21
204.696221825
 31
0.0
  0
LINE
  5
9C
330
1F
100
AcDbEntity
  8
0
  6
Continuous
 62
     7
370
    25
100
AcDbLine
 10
-106.776444819
 20
204.696221825
 30
0.0
 11
-106.776444819
 21
182.1886302061
 31
0.0
  0
LINE
  5
9D
330
1F
100
AcDbEntity
  8
0
  6
Continuous
 62
     7
370
    25
100
AcDbLine
 10
-344.776444819
 20
182.196221825
 30
0.0
 11
-344.776444819
 21
204.696221825
 31
0.0
  0
LINE
  5
9E
330
1F
100
AcDbEntity
  8
0
  6
Continuous
 62
     7
370
    25
100
AcDbLine
 10
-358.776444819
 20
204.696221825
 30
0.0
 11
-358.776444819
 21
182.1886302061
 31
0.0
  0
CIRCLE
  5
9F
330
1F
100
AcDbEntity
  8
0
  6
Continuous
 62
     7
370
    25
100
AcDbCircle
 10
-225.776444819
 20
103.196221825
 30
0.0
 40
25.70000000000002
  0
CIRCLE
  5
A0
330
1F
100
AcDbEntity
  8
0
  6
Continuous
 62
     7
370
    25
100
AcDbCircle
 10
-225.776444819
 20
103.196221825
 30
0.0
 40
31.5
  0
LINE
  5
A1
330
1F
100
AcDbEntity
  8
0
  6
Continuous
 62
     7
370
    25
100
AcDbLine
 10
-359.776444819
 20
103.196221825
 30
0.0
 11
-359.776444819
 21
182.196221825
 31
0.0
  0
LINE
  5
A2
330
1F
100
AcDbEntity
  8
0
  6
Continuous
 62
     7
370
    25
100
AcDbLine
 10
-359.776444819
 20
24.196221825
 30
0.0
 11
-359.776444819
 21
103.196221825
 31
0.0
  0
LINE
  5
A3
330
1F
100
AcDbEntity
  8
0
  6
Continuous
 62
     7
370
    25
100
AcDbLine
 10
-91.776444819
 20
103.196221825
 30
0.0
 11
-91.776444819
 21
182.196221825
 31
0.0
  0
LINE
  5
A4
330
1F
100
AcDbEntity
  8
0
  6
Continuous
 62
     7
370
    25
100
AcDbLine
 10
-91.776444819
 20
24.196221825
 30
0.0
 11
-91.776444819
 21
103.196221825
 31
0.0
  0
SPLINE
  5
A5
330
1F
100
AcDbEntity
  8
0
  6
Continuous
 62
     7
370
    25
100
AcDbSpline
210
0.0
220
0.0
230
1.0
 70
     8
 71
     3
 72
    17
 73
    13
 74
     0
 42
0.00000001
 43
0.00000001
 40
0.0
 40
0.0
 40
0.0
 40
0.0
 40
0.1070846455846277
 40
0.2141591967228406
 40
0.3214960969920784
 40
0.4290084177978434
 40
0.5362341824212892
 40
0.6431584138167081
 40
0.7502366264344968
 40
0.857683482391039
 40
0.9651397471044036
 40
1.0
 40
1.0
 40
1.0
 40
1.0
 10
-344.7764448190426
 20
182.1962218249819
 30
0.0
 10
-344.8535300304292
 20
182.1891982849704
 30
0.0
 10
-345.007693186684
 20
182.1751518670288
 30
0.0
 10
-346.2090677310765
 20
182.0774208364186
 30
0.0
 10
-347.9807904690692
 20
181.9683900778769
 30
0.0
 10
-350.1974825217712
 20
181.8895936121136
 30
0.0
 10
-352.5874492179353
 20
181.8776833945069
 30
0.0
 10
-354.8791026280471
 20
181.9366993641573
 30
0.0
 10
-356.8373857095545
 20
182.0423331374398
 30
0.0
 10
-358.1752922126493
 20
182.1429317319297
 30
0.0
 10
-358.8132403586123
 20
182.1994385426399
 30
0.0
 10
-358.7139563329913
 20
182.1907356470638
 30
0.0
 10
-358.689636835158
 20
182.188603883683
 30
0.0
  0
SPLINE
  5
A6
330
1F
100
AcDbEntity
  8
0
  6
Continuous
 62
     7
370
    25
100
AcDbSpline
210
0.0
220
0.0
230
1.0
 70
     8
 71
     3
 72
    17
 73
    13
 74
     0
 42
0.00000001
 43
0.00000001
 40
0.0
 40
0.0
 40
0.0
 40
0.0
 40
0.1070846455846278
 40
0.2141591967228414
 40
0.3214960969920779
 40
0.4290084177978433
 40
0.5362341824212884
 40
0.6431584138167086
 40
0.750236626434495
 40
0.8576834823910398
 40
0.9651397471044034
 40
1.0
 40
1.0
 40
1.0
 40
1.0
 10
-92.77644481904254
 20
182.1962218249819
 30
0.0
 10
-92.8535300304291
 20
182.1891982849704
 30
0.0
 10
-93.00769318668401
 20
182.1751518670288
 30
0.0
 10
-94.2090677310766
 20
182.0774208364186
 30
0.0
 10
-95.98079046906923
 20
181.9683900778769
 30
0.0
 10
-98.19748252177115
 20
181.8895936121136
 30
0.0
 10
-100.5874492179353
 20
181.8776833945069
 30
0.0
 10
-102.8791026280471
 20
181.9366993641573
 30
0.0
 10
-104.8373857095545
 20
182.0423331374398
 30
0.0
 10
-106.1752922126493
 20
182.1429317319296
 30
0.0
 10
-106.8132403586123
 20
182.19943854264
 30
0.0
 10
-106.7139563329914
 20
182.1907356470637
 30
0.0
 10
-106.689636835158
 20
182.188603883683
 30
0.0
  0
LINE
  5
A7
330
1F
100
AcDbEntity
  8
0
  6
Continuous
 62
     7
370
    25
100
AcDbLine
 10
-92.776444819
 20
204.696221825
 30
0.0
 11
-106.776444819
 21
204.696221825
 31
0.0
  0
LINE
  5
A8
330
1F
100
AcDbEntity
  8
0
  6
Continuous
 62
     7
370
    25
100
AcDbLine
 10
-344.776444819
 20
204.696221825
 30
0.0
 11
-358.776444819
 21
204.696221825
 31
0.0
  0
INSERT
  5
B4
330
1F
100
AcDbEntity
  8
FORMAT
 62
     7
100
AcDbBlockReference
  2
SW_CENTERMARKSYMBOL_1
 10
-225.776444819
 20
103.196221825
 30
0.0
  0
LINE
  5
B5
330
1F
100
AcDbEntity
  8
0
  6
Continuous
 62
     7
370
    25
100
AcDbLine
 10
182.1168774785
 20
452.5953347159
 30
0.0
 11
182.1168774785
 21
555.0953347159
 31
0.0
  0
LINE
  5
B6
330
1F
100
AcDbEntity
  8
0
  6
Continuous
 62
     7
370
    25
100
AcDbLine
 10
182.1168774785
 20
287.0953347159
 30
0.0
 11
182.1168774785
 21
389.6436317708
 31
0.0
  0
LINE
  5
B7
330
1F
100
AcDbEntity
  8
0
  6
Continuous
 62
     7
370
    25
100
AcDbLine
 10
24.1168774785
 20
555.0953347159
 30
0.0
 11
24.1168774785
 21
287.0953347159
 31
0.0
  0
LINE
  5
B8
330
1F
100
AcDbEntity
  8
0
  6
Continuous
 62
     7
370
    25
100
AcDbLine
 10
182.0977585263
 20
389.5953347159
 30
0.0
 11
253.1168774785
 21
389.5953347159
 31
0.0
  0
LINE
  5
B9
330
1F
100
AcDbEntity
  8
0
  6
Continuous
 62
     7
370
    25
100
AcDbLine
 10
253.1168774785
 20
452.5953347159
 30
0.0
 11
182.1168774785
 21
452.5953347159
 31
0.0
  0
SPLINE
  5
BA
330
1F
100
AcDbEntity
  8
0
  6
Continuous
 62
     7
370
    25
100
AcDbSpline
210
0.0
220
0.0
230
1.0
 70
     8
 71
     3
 72
    27
 73
    23
 74
     0
 42
0.00000001
 43
0.00000001
 40
0.0
 40
0.0
 40
0.0
 40
0.0
 40
0.0501494524654677
 40
0.1018198201827426
 40
0.151952310765835
 40
0.2034295460149409
 40
0.2557135105245476
 40
0.3093863544779733
 40
0.363844489411932
 40
0.4200227121391731
 40
0.4719499367975549
 40
0.525614641133074
 40
0.5740769342838643
 40
0.6238973659157928
 40
0.6734304662174692
 40
0.7242064322827588
 40
0.7774864230819646
 40
0.8322469997177254
 40
0.8864303547446039
 40
0.9423793226961903
 40
0.9933716909105432
 40
0.9999999999999999
 40
0.9999999999999999
 40
0.9999999999999999
 40
0.9999999999999999
 10
182.1168774784986
 20
452.5953347158615
 30
0.0
 10
182.0859037697254
 20
452.5180602347262
 30
0.0
 10
182.0230169922505
 20
452.3611677187146
 30
0.0
 10
181.5296348281438
 20
451.104502469524
 30
0.0
 10
180.7915149999149
 20
449.1331624018085
 30
0.0
 10
179.851790887014
 20
446.4379234109963
 30
0.0
 10
178.7848974906442
 20
443.0304860851409
 30
0.0
 10
177.6943475615574
 20
438.9583805209947
 30
0.0
 10
176.6963237782922
 20
434.2555294161386
 30
0.0
 10
175.9523015199483
 20
429.1750444470062
 30
0.0
 10
175.5534312563326
 20
423.8543115803282
 30
0.0
 10
175.5447747670526
 20
418.6935532451499
 30
0.0
 10
175.8912858446429
 20
413.6862399908648
 30
0.0
 10
176.518598701682
 20
409.0208838604482
 30
0.0
 10
177.3788315314157
 20
404.6110337478828
 30
0.0
 10
178.3956881516721
 20
400.5326051426013
 30
0.0
 10
179.4873283439062
 20
396.8635772607936
 30
0.0
 10
180.5247216243175
 20
393.7936696844527
 30
0.0
 10
181.398108637986
 20
391.4273639270146
 30
0.0
 10
181.9311415311927
 20
390.0600628017573
 30
0.0
 10
182.1579648805718
 20
389.4918589736844
 30
0.0
 10
182.1039132499353
 20
389.6279739827245
 30
0.0
 10
182.0976955008319
 20
389.6436317707592
 30
0.0
  0
LINE
  5
BB
330
1F
100
AcDbEntity
  8
0
  6
Continuous
 62
     7
370
    25
100
AcDbLine
 10
24.1168774785
 20
555.0953347159
 30
0.0
 11
182.1168774785
 21
555.0953347159
 31
0.0
  0
LINE
  5
BC
330
1F
100
AcDbEntity
  8
0
  6
Continuous
 62
     7
370
    25
100
AcDbLine
 10
24.1168774785
 20
287.0953347159
 30
0.0
 11
182.1168774785
 21
287.0953347159
 31
0.0
  0
LINE
  5
BD
330
1F
100
AcDbEntity
  8
0
  6
Continuous
 62
     7
370
    25
100
AcDbLine
 10
253.1168774785
 20
452.5953347159
 30
0.0
 11
253.1168774785
 21
389.5953347159
 31
0.0
  0
LINE
  5
BE
330
1F
100
AcDbEntity
  8
0
  6
Continuous
 62
     7
370
    25
100
AcDbLine
 10
315.4513887768
 20
24.196221825
 30
0.0
 11
583.4513887768
 21
24.196221825
 31
0.0
  0
LINE
  5
BF
330
1F
100
AcDbEntity
  8
0
  6
Continuous
 62
     7
370
    25
100
AcDbLine
 10
316.4513887768
 20
182.196221825
 30
0.0
 11
315.4513887768
 21
182.196221825
 31
0.0
  0
LINE
  5
C0
330
1F
100
AcDbEntity
  8
0
  6
Continuous
 62
     7
370
    25
100
AcDbLine
 10
568.4513887768
 20
182.196221825
 30
0.0
 11
330.364580793
 21
182.196221825
 31
0.0
  0
LINE
  5
C1
330
1F
100
AcDbEntity
  8
0
  6
Continuous
 62
     7
370
    25
100
AcDbLine
 10
583.4513887768
 20
182.196221825
 30
0.0
 11
582.364580793
 21
182.196221825
 31
0.0
  0
LINE
  5
C2
330
1F
100
AcDbEntity
  8
0
  6
Continuous
 62
     7
370
    25
100
AcDbLine
 10
330.4513887768
 20
182.1886302061
 30
0.0
 11
330.4513887768
 21
204.696221825
 31
0.0
  0
LINE
  5
C3
330
1F
100
AcDbEntity
  8
0
  6
Continuous
 62
     7
370
    25
100
AcDbLine
 10
316.4513887768
 20
204.696221825
 30
0.0
 11
316.4513887768
 21
182.196221825
 31
0.0
  0
LINE
  5
C4
330
1F
100
AcDbEntity
  8
0
  6
Continuous
 62
     7
370
    25
100
AcDbLine
 10
582.4513887768
 20
182.1886302061
 30
0.0
 11
582.4513887768
 21
204.696221825
 31
0.0
  0
LINE
  5
C5
330
1F
100
AcDbEntity
  8
0
  6
Continuous
 62
     7
370
    25
100
AcDbLine
 10
568.4513887768
 20
204.696221825
 30
0.0
 11
568.4513887768
 21
182.196221825
 31
0.0
  0
LINE
  5
C6
330
1F
100
AcDbEntity
  8
0
  6
Continuous
 62
     7
370
    25
100
AcDbLine
 10
583.4513887768
 20
182.196221825
 30
0.0
 11
583.4513887768
 21
24.196221825
 31
0.0
  0
LINE
  5
C7
330
1F
100
AcDbEntity
  8
0
  6
Continuous
 62
     7
370
    25
100
AcDbLine
 10
315.4513887768
 20
182.196221825
 30
0.0
 11
315.4513887768
 21
24.196221825
 31
0.0
  0
ARC
  5
C8
330
1F
100
AcDbEntity
  8
0
  6
Continuous
 62
     7
370
    25
100
AcDbCircle
 10
575.4511501409
 20
261.0283952634
 30
0.0
 40
79.14232892815984
100
AcDbArc
 50
264.9258314719
 51
275.0114257957
  0
ARC
  5
C9
330
1F
100
AcDbEntity
  8
0
  6
Continuous
 62
     7
370
    25
100
AcDbCircle
 10
323.4511501409
 20
261.0283952634
 30
0.0
 40
79.14232892814816
100
AcDbArc
 50
264.9258314719
 51
275.0114257957
  0
LINE
  5
CA
330
1F
100
AcDbEntity
  8
0
  6
Continuous
 62
     7
370
    25
100
AcDbLine
 10
330.4513887768
 20
204.696221825
 30
0.0
 11
316.4513887768
 21
204.696221825
 31
0.0
  0
LINE
  5
CB
330
1F
100
AcDbEntity
  8
0
  6
Continuous
 62
     7
370
    25
100
AcDbLine
 10
582.4513887768
 20
204.696221825
 30
0.0
 11
568.4513887768
 21
204.696221825
 31
0.0
  0
LINE
  5
CC
330
1F
100
AcDbEntity
  8
0
  6
Continuous
 62
     7
370
    25
100
AcDbLine
 10
24.1168774785
 20
-58.8255335138
 30
0.0
 11
24.1168774785
 21
-326.8255335138
 31
0.0
  0
LINE
  5
CD
330
1F
100
AcDbEntity
  8
0
  6
Continuous
 62
     7
370
    25
100
AcDbLine
 10
182.1168774785
 20
-161.3738305687
 30
0.0
 11
182.1168774785
 21
-58.8255335138
 31
0.0
  0
LINE
  5
CE
330
1F
100
AcDbEntity
  8
0
  6
Continuous
 62
     7
370
    25
100
AcDbLine
 10
182.1168774785
 20
-326.8255335138
 30
0.0
 11
182.1168774785
 21
-224.3255335138
 31
0.0
  0
LINE
  5
CF
330
1F
100
AcDbEntity
  8
0
  6
Continuous
 62
     7
370
    25
100
AcDbLine
 10
182.1168774785
 20
-224.3255335138
 30
0.0
 11
253.1168774785
 21
-224.3255335138
 31
0.0
  0
LINE
  5
D0
330
1F
100
AcDbEntity
  8
0
  6
Continuous
 62
     7
370
    25
100
AcDbLine
 10
253.1168774785
 20
-161.3255335138
 30
0.0
 11
182.0977585263
 21
-161.3255335138
 31
0.0
  0
CIRCLE
  5
D1
330
1F
100
AcDbEntity
  8
0
  6
Continuous
 62
     7
370
    25
100
AcDbCircle
 10
103.1168774785
 20
-66.8255335138
 30
0.0
 40
7.000000000000014
  0
CIRCLE
  5
D2
330
1F
100
AcDbEntity
  8
0
  6
Continuous
 62
     7
370
    25
100
AcDbCircle
 10
103.1168774785
 20
-66.8255335138
 30
0.0
 40
5.0
  0
CIRCLE
  5
D3
330
1F
100
AcDbEntity
  8
0
  6
Continuous
 62
     7
370
    25
100
AcDbCircle
 10
103.1168774785
 20
-318.8255335138
 30
0.0
 40
5.0
  0
CIRCLE
  5
D4
330
1F
100
AcDbEntity
  8
0
  6
Continuous
 62
     7
370
    25
100
AcDbCircle
 10
103.1168774785
 20
-318.8255335138
 30
0.0
 40
7.0
  0
LWPOLYLINE
  5
D5
330
1F
100
AcDbEntity
  8
0
  6
Continuous
 62
     7
370
    25
100
AcDbPolyline
 90
       22
 70
   128
 43
0.0
 10
182.0976955008
 20
-161.3738305687
 10
181.983809127
 20
-161.660763217
 10
181.5649345615
 20
-162.7365378493
 10
180.8784613483
 20
-164.5746233348
 10
179.9941722852
 20
-167.1084485934
 10
178.9708098987
 20
-170.3517918668
 10
177.8895303619
 20
-174.3268952064
 10
176.878749785
 20
-178.9668248381
 10
176.1079244911
 20
-183.940549327
 10
175.6467664492
 20
-189.3853599577
 10
175.5820489601
 20
-194.391125368
 10
175.8723549714
 20
-199.5045682654
 10
176.4367964307
 20
-204.0976457896
 10
177.2436179343
 20
-208.5106745908
 10
178.2264390678
 20
-212.6420983558
 10
179.2889981349
 20
-216.3508808076
 10
180.3338474769
 20
-219.5408934354
 10
181.2340771986
 20
-222.0410583611
 10
181.8288238893
 20
-223.5959821256
 10
182.1059913952
 20
-224.298221949
 10
182.1168774785
 20
-224.3255335138
 10
182.1168774785
 20
-224.3255335138
  0
LINE
  5
D6
330
1F
100
AcDbEntity
  8
0
  6
Continuous
 62
     7
370
    25
100
AcDbLine
 10
182.1168774785
 20
-326.8255335138
 30
0.0
 11
24.1168774785
 21
-326.8255335138
 31
0.0
  0
LINE
  5
D7
330
1F
100
AcDbEntity
  8
0
  6
Continuous
 62
     7
370
    25
100
AcDbLine
 10
182.1168774785
 20
-58.8255335138
 30
0.0
 11
24.1168774785
 21
-58.8255335138
 31
0.0
  0
LINE
  5
D8
330
1F
100
AcDbEntity
  8
0
  6
Continuous
 62
     7
370
    25
100
AcDbLine
 10
253.1168774785
 20
-161.3255335138
 30
0.0
 11
253.1168774785
 21
-224.3255335138
 31
0.0
  0
INSERT
  5
E4
330
1F
100
AcDbEntity
  8
FORMAT
 62
     7
100
AcDbBlockReference
  2
SW_CENTERMARKSYMBOL_2
 10
103.1168774785
 20
-318.8255335138
 30
0.0
  0
INSERT
  5
F0
330
1F
100
AcDbEntity
  8
FORMAT
 62
     7
100
AcDbBlockReference
  2
SW_CENTERMARKSYMBOL_3
 10
103.1168774785
 20
-66.8255335138
 30
0.0
  0
LINE
  5
F1
330
1F
100
AcDbEntity
  8
0
  6
Continuous
 62
     7
370
    25
100
AcDbLine
 10
602.6413405838
 20
-167.8006124108
 30
0.0
 11
578.9012227392
 21
-154.0957340956
 31
0.0
  0
LINE
  5
F2
330
1F
100
AcDbEntity
  8
0
  6
Continuous
 62
     7
370
    25
100
AcDbLine
 10
515.8961024792
 20
-117.723652371
 30
0.0
 11
413.1367232258
 21
-58.4019254265
 31
0.0
  0
LINE
  5
F3
330
1F
100
AcDbEntity
  8
0
  6
Continuous
 62
     7
370
    25
100
AcDbLine
 10
334.1431433476
 20
-195.2376456827
 30
0.0
 11
523.6477607056
 21
-304.6363326669
 31
0.0
  0
LINE
  5
F4
330
1F
100
AcDbEntity
  8
0
  6
Continuous
 62
     7
370
    25
100
AcDbLine
 10
537.7339438087
 20
-177.8610983622
 30
0.0
 11
590.2069791827
 21
-147.569059825
 31
0.0
  0
LINE
  5
F5
330
1F
100
AcDbEntity
  8
0
  6
Continuous
 62
     7
370
    25
100
AcDbLine
 10
558.7095391047
 20
-93.007981495
 30
0.0
 11
506.2380406634
 21
-123.2991327798
 31
0.0
  0
LINE
  5
F6
330
1F
100
AcDbEntity
  8
0
  6
Continuous
 62
     7
370
    25
100
AcDbLine
 10
386.2967875362
 20
-56.684008106
 30
0.0
 11
386.2967875362
 21
-47.2065255955
 31
0.0
  0
LINE
  5
F7
330
1F
100
AcDbEntity
  8
0
  6
Continuous
 62
     7
370
    25
100
AcDbLine
 10
372.2967875362
 20
-47.2065255955
 30
0.0
 11
372.2967875362
 21
-63.1070921386
 31
0.0
  0
SPLINE
  5
F8
330
1F
100
AcDbEntity
  8
0
  6
Continuous
 62
     7
370
    25
100
AcDbSpline
210
0.0
220
0.0
230
1.0
 70
     8
 71
     3
 72
    22
 73
    18
 74
     0
 42
0.00000001
 43
0.00000001
 40
0.0
 40
0.0
 40
0.0
 40
0.0
 40
0.067866490341656
 40
0.1357459050763915
 40
0.2034705498866306
 40
0.2712148378679853
 40
0.3418477244021863
 40
0.4124806380950008
 40
0.486247737471372
 40
0.559981840264464
 40
0.630373659407959
 40
0.7007538819946381
 40
0.766259784157935
 40
0.8317854311065142
 40
0.8986453024413784
 40
0.9655215255456944
 40
1.0
 40
1.0
 40
1.0
 40
1.0
 10
501.9798140720497
 20
-136.4125808685115
 30
0.0
 10
502.0139563151617
 20
-137.8448467578711
 30
0.0
 10
502.0822473033836
 20
-140.7096512951676
 30
0.0
 10
502.6247224913452
 20
-145.4570153390768
 30
0.0
 10
503.4967621036425
 20
-150.3534844560578
 30
0.0
 10
504.7438396822209
 20
-155.3576436201223
 30
0.0
 10
506.3974045301105
 20
-160.3196552778632
 30
0.0
 10
508.5162166660603
 20
-165.1641191916493
 30
0.0
 10
511.1351095565074
 20
-169.640641438604
 30
0.0
 10
514.2141458197643
 20
-173.5201251632647
 30
0.0
 10
517.6869207284675
 20
-176.5736882679205
 30
0.0
 10
521.3411204334701
 20
-178.7143328563703
 30
0.0
 10
525.1085339244671
 20
-179.9384517275901
 30
0.0
 10
528.8686687829976
 20
-180.3633257120925
 30
0.0
 10
532.560072561984
 20
-179.9443513941345
 30
0.0
 10
535.5746609785232
 20
-179.0869536715276
 30
0.0
 10
537.1438921880771
 20
-178.0999593537106
 30
0.0
 10
537.6777075856339
 20
-177.7642071962567
 30
0.0
  0
SPLINE
  5
F9
330
1F
100
AcDbEntity
  8
0
  6
Continuous
 62
     7
370
    25
100
AcDbSpline
210
0.0
220
0.0
230
1.0
 70
     8
 71
     3
 72
    13
 73
     9
 74
     0
 42
0.00000001
 43
0.00000001
 40
0.0
 40
0.0
 40
0.0
 40
0.0
 40
0.0745929673203904
 40
0.2950615029949843
 40
0.5154601730258693
 40
0.7314891010635155
 40
0.9474574163333285
 40
1.0
 40
1.0
 40
1.0
 40
1.0
 10
506.2842588216889
 20
-123.3816918957655
 30
0.0
 10
506.0571552621409
 20
-123.4837906387085
 30
0.0
 10
505.1588196680103
 20
-123.8876545635378
 30
0.0
 10
504.0318545911824
 20
-125.4006821923409
 30
0.0
 10
502.9031938422309
 20
-127.9285134894592
 30
0.0
 10
502.2234101796899
 20
-131.2804923183713
 30
0.0
 10
501.9945393081725
 20
-134.2506032426736
 30
0.0
 10
501.9822239569846
 20
-136.0587585415583
 30
0.0
 10
501.9798140720497
 20
-136.4125808685115
 30
0.0
  0
LWPOLYLINE
  5
FA
330
1F
100
AcDbEntity
  8
0
  6
Continuous
 62
     7
370
    25
100
AcDbPolyline
 90
      108
 70
   128
 43
0.0
 10
429.5013690004
 20
-94.5716651376
 10
429.4050860298
 20
-90.8415022135
 10
429.1165690253
 20
-87.2353638855
 10
428.6368125648
 20
-83.7656812593
 10
427.9674704681
 20
-80.4444150497
 10
427.1108500962
 20
-77.2830143495
 10
426.069904397
 20
-74.2923771617
 10
424.8482217259
 20
-71.4828128323
 10
423.4500134761
 20
-68.8640065116
 10
421.8800995612
 20
-66.4449857675
 10
420.1438917997
 20
-64.2340894655
 10
418.2473752593
 20
-62.2389390233
 10
416.1970876255
 20
-60.4664121378
 10
414.0000966645
 20
-58.9226190763
 10
411.6639758593
 20
-57.6128816133
 10
409.1967783022
 20
-56.5417146852
 10
406.6070089343
 20
-55.7128108263
 10
403.9035952271
 20
-55.1290274399
 10
401.0958564078
 20
-54.7923769484
 10
398.1934713337
 20
-54.7040198555
 10
395.2064451273
 20
-54.8642607467
 10
392.1450746869
 20
-55.2725472383
 10
389.0199131906
 20
-55.9274718822
 10
385.8417337174
 20
-56.8267770174
 10
382.6214921103
 20
-57.967362553
 10
379.3702892094
 20
-59.3452966542
 10
376.0993325845
 20
-60.9558292968
 10
372.8198979007
 20
-62.793408641
 10
369.5432900487
 20
-64.8517001703
 10
366.2808041747
 20
-67.1236085273
 10
363.0436867433
 20
-69.6013019733
 10
359.8430967688
 20
-72.2762393856
 10
356.6900673479
 20
-75.1391997009
 10
353.5954676264
 20
-78.1803137019
 10
350.5699653303
 20
-81.3890980386
 10
347.6239899931
 20
-84.7544913666
 10
344.7676970019
 20
-88.264892478
 10
342.0109325903
 20
-91.9082002929
 10
339.3631998965
 20
-95.6718555746
 10
336.8336262035
 20
-99.5428842235
 10
334.4309314759
 20
-103.5079420021
 10
332.1633983001
 20
-107.5533605347
 10
330.0388433327
 20
-111.6651944256
 10
328.0645903549
 20
-115.8292693316
 10
326.2474450256
 20
-120.0312308238
 10
324.5936714212
 20
-124.2565938705
 10
323.108970442
 20
-128.4907927699
 10
321.7984601598
 20
-132.7192313613
 10
320.666658175
 20
-136.9273333409
 10
319.7174660436
 20
-141.1005925093
 10
318.9541558274
 20
-145.2246227777
 10
318.3793588149
 20
-149.2852077595
 10
317.9950564504
 20
-153.2683497769
 10
317.8025735039
 20
-157.1603181143
 10
317.8025735039
 20
-160.9476963507
 10
317.9950564504
 20
-164.6174286085
 10
318.3793588149
 20
-168.1568645605
 10
318.9541558274
 20
-171.5538030377
 10
319.7174660436
 20
-174.7965340895
 10
320.666658175
 20
-177.8738793501
 10
321.7984601598
 20
-180.775230573
 10
323.108970442
 20
-183.4905861994
 10
324.5936714212
 20
-186.010585836
 10
326.2474450256
 20
-188.326542522
 10
328.0645903549
 20
-190.4304726748
 10
330.0388433327
 20
-192.3151236115
 10
332.1633983001
 20
-193.9739985498
 10
334.4309314759
 20
-195.4013790041
 10
336.8336262035
 20
-196.5923444984
 10
339.3631998965
 20
-197.5427895278
 10
342.0109325903
 20
-198.2494377113
 10
344.7676970019
 20
-198.7098530865
 10
347.6239899931
 20
-198.922448506
 10
350.5699653304
 20
-198.8864911094
 10
353.5954676264
 20
-198.6021048493
 10
356.6900673479
 20
-198.0702700641
 10
359.8430967688
 20
-197.2928200984
 10
363.0436867433
 20
-196.2724349834
 10
366.2808041747
 20
-195.0126321979
 10
369.5432900487
 20
-193.517754543
 10
372.8198979007
 20
-191.7929551718
 10
376.0993325845
 20
-189.844179825
 10
379.3702892094
 20
-187.6781463349
 10
382.6214921103
 20
-185.3023214677
 10
385.8417337174
 20
-182.7248951838
 10
389.0199131906
 20
-179.9547524057
 10
392.1450746869
 20
-177.0014423894
 10
395.2064451273
 20
-173.8751458062
 10
398.1934713337
 20
-170.5866396482
 10
401.0958564078
 20
-167.1472600773
 10
403.9035952271
 20
-163.5688633474
 10
406.6070089343
 20
-159.8637849334
 10
409.1967783022
 20
-156.0447970081
 10
411.6639758593
 20
-152.125064414
 10
414.0000966645
 20
-148.1180992814
 10
416.1970876255
 20
-144.0377144492
 10
418.2473752593
 20
-139.8979758492
 10
420.1438917997
 20
-135.7131540179
 10
421.8800995612
 20
-131.4976749032
 10
423.4500134761
 20
-127.2660701349
 10
424.8482217259
 20
-123.0329269311
 10
426.069904397
 20
-118.8128378135
 10
427.1108500962
 20
-114.6203503035
 10
427.9674704681
 20
-110.4699167741
 10
428.6368125648
 20
-106.3758446294
 10
429.1165690253
 20
-102.3522469842
 10
429.4050860298
 20
-98.4129940133
 10
429.5013690004
 20
-94.5716651376
  0
LWPOLYLINE
  5
FB
330
1F
100
AcDbEntity
  8
0
  6
Continuous
 62
     7
370
    25
100
AcDbPolyline
 90
       15
 70
   128
 43
0.0
 10
619.0059863584
 20
-203.9703521218
 10
618.9097033878
 20
-200.2401891978
 10
618.6211863833
 20
-196.6340508697
 10
618.1414299228
 20
-193.1643682435
 10
617.4720878261
 20
-189.843102034
 10
616.6154674542
 20
-186.6817013337
 10
615.574521755
 20
-183.691064146
 10
614.3528390839
 20
-180.8814998166
 10
612.9546308341
 20
-178.2626934959
 10
611.3847169192
 20
-175.8436727517
 10
609.6485091577
 20
-173.6327764497
 10
607.7519926173
 20
-171.6376260075
 10
605.7017049835
 20
-169.865099122
 10
603.5047140225
 20
-168.3213060605
 10
602.6413405838
 20
-167.8006124108
  0
LWPOLYLINE
  5
FC
330
1F
100
AcDbEntity
  8
0
  6
Continuous
 62
     7
370
    25
100
AcDbPolyline
 90
       42
 70
   128
 43
0.0
 10
523.6477607056
 20
-304.6363326669
 10
523.9355488339
 20
-304.8000659884
 10
526.3382435615
 20
-305.9910314826
 10
528.8678172545
 20
-306.941476512
 10
531.5155499483
 20
-307.6481246956
 10
534.2723143599
 20
-308.1085400707
 10
537.1286073511
 20
-308.3211354902
 10
540.0745826883
 20
-308.2851780937
 10
543.1000849844
 20
-308.0007918336
 10
546.1946847059
 20
-307.4689570484
 10
549.3477141268
 20
-306.6915070827
 10
552.5483041012
 20
-305.6711219676
 10
555.7854215327
 20
-304.4113191821
 10
559.0479074067
 20
-302.9164415272
 10
562.3245152587
 20
-301.191642156
 10
565.6039499425
 20
-299.2428668092
 10
568.8749065674
 20
-297.0768333191
 10
572.1261094683
 20
-294.7010084519
 10
575.3463510754
 20
-292.1235821681
 10
578.5245305486
 20
-289.35343939
 10
581.6496920449
 20
-286.4001293736
 10
584.7110624853
 20
-283.2738327904
 10
587.6980886917
 20
-279.9853266324
 10
590.6004737658
 20
-276.5459470615
 10
593.4082125851
 20
-272.9675503317
 10
596.1116262923
 20
-269.2624719176
 10
598.7013956601
 20
-265.4434839923
 10
601.1685932173
 20
-261.5237513982
 10
603.5047140225
 20
-257.5167862656
 10
605.7017049835
 20
-253.4364014334
 10
607.7519926173
 20
-249.2966628334
 10
609.6485091577
 20
-245.1118410022
 10
611.3847169192
 20
-240.8963618875
 10
612.9546308341
 20
-236.6647571191
 10
614.3528390839
 20
-232.4316139153
 10
615.574521755
 20
-228.2115247977
 10
616.6154674542
 20
-224.0190372877
 10
617.4720878261
 20
-219.8686037583
 10
618.1414299228
 20
-215.7745316136
 10
618.6211863833
 20
-211.7509339685
 10
618.9097033878
 20
-207.8116809975
 10
619.0059863584
 20
-203.9703521218
  0
LWPOLYLINE
  5
FD
330
1F
100
AcDbEntity
  8
0
  6
Continuous
 62
     7
370
    25
100
AcDbPolyline
 90
       96
 70
   128
 43
0.0
 10
417.8341071109
 20
-101.3070320601
 10
417.7374821721
 20
-97.9899587385
 10
417.4480298722
 20
-94.7989509141
 10
416.9670159123
 20
-91.7479620523
 10
416.2965436441
 20
-88.8503333511
 10
415.4395448723
 20
-86.1187354036
 10
414.3997670344
 20
-83.5651127924
 10
413.1817568144
 20
-81.2006318597
 10
411.790840261
 20
-79.0356318788
 10
410.2330994984
 20
-77.0795798439
 10
408.5153461306
 20
-75.3410290727
 10
406.6450914561
 20
-73.8275818056
 10
404.6305136227
 20
-72.5458559622
 10
402.4804218667
 20
-71.5014562036
 10
400.2042179921
 20
-70.6989494242
 10
397.8118552596
 20
-70.1418447819
 10
395.3137948624
 20
-69.8325783537
 10
392.7209601833
 20
-69.7725024828
 10
390.0446890284
 20
-69.9618798659
 10
387.2966840507
 20
-70.3998824037
 10
384.4889615767
 20
-71.0845948227
 10
381.6337990624
 20
-72.0130230496
 10
378.7436814069
 20
-73.1811073041
 10
375.8312463596
 20
-74.5837398508
 10
372.9092292577
 20
-76.2147873346
 10
369.9904073386
 20
-78.0671175998
 10
367.0875438679
 20
-80.1326308775
 10
364.213332329
 20
-82.4022952036
 10
361.3803409175
 20
-84.8661859135
 10
358.6009575842
 20
-87.5135290401
 10
355.8873358652
 20
-90.3327484255
 10
353.2513417378
 20
-93.3115163405
 10
350.7045017336
 20
-96.4368073911
 10
348.2579525359
 20
-99.6949554745
 10
345.9223922819
 20
-103.0717135384
 10
343.7080337824
 20
-106.5523158788
 10
341.6245598636
 20
-110.1215427072
 10
339.6810810268
 20
-113.763786703
 10
337.8860956106
 20
-117.4631212598
 10
336.2474526294
 20
-121.2033701289
 10
334.7723174521
 20
-124.9681781536
 10
333.4671404694
 20
-128.7410827864
 10
332.3376288883
 20
-132.5055860752
 10
331.3887217754
 20
-136.245226805
 10
330.6245684602
 20
-139.9436524785
 10
330.0485103907
 20
-143.584690821
 10
329.6630665222
 20
-147.1524204985
 10
329.4699223026
 20
-150.6312407367
 10
329.4699223026
 20
-154.00593954
 10
329.6630665222
 20
-157.2617602091
 10
330.0485103907
 20
-160.3844658685
 10
330.6245684602
 20
-163.3604017211
 10
331.3887217754
 20
-166.1765547565
 10
332.3376288883
 20
-168.820610654
 10
333.4671404694
 20
-171.2810076299
 10
334.7723174521
 20
-173.5469869943
 10
336.2474526294
 20
-175.608640196
 10
337.8860956106
 20
-177.45695215
 10
339.6810810268
 20
-179.0838406585
 10
341.6245598636
 20
-180.482191752
 10
343.7080337824
 20
-181.6458907969
 10
345.9223922819
 20
-182.5698492334
 10
348.2579525359
 20
-183.2500268263
 10
350.7045017336
 20
-183.6834493321
 10
353.2513417378
 20
-183.8682215045
 10
355.8873358652
 20
-183.8035353818
 10
358.6009575842
 20
-183.4896738198
 10
361.3803409175
 20
-182.9280092554
 10
364.213332329
 20
-182.1209977048
 10
367.0875438679
 20
-181.0721680242
 10
369.9904073386
 20
-179.7861064789
 10
372.9092292577
 20
-178.2684366888
 10
375.8312463596
 20
-176.5257950378
 10
378.7436814069
 20
-174.5658016543
 10
381.6337990624
 20
-172.3970270909
 10
384.4889615767
 20
-170.0289548467
 10
387.2966840507
 20
-167.4719398993
 10
390.0446890284
 20
-164.7371634244
 10
392.7209601833
 20
-161.8365839036
 10
395.3137948624
 20
-158.7828848333
 10
397.8118552596
 20
-155.5894192624
 10
400.2042179921
 20
-152.2701514034
 10
402.4804218667
 20
-148.8395955701
 10
404.6305136227
 20
-145.3127527102
 10
406.6450914561
 20
-141.7050448103
 10
408.5153461306
 20
-138.032247459
 10
410.2330994984
 20
-134.3104208647
 10
411.790840261
 20
-130.5558396281
 10
413.1817568144
 20
-126.7849215775
 10
414.3997670344
 20
-123.0141559783
 10
415.4395448723
 20
-119.260031429
 10
416.2965436441
 20
-115.5389637609
 10
416.9670159123
 20
-111.8672242563
 10
417.4480298722
 20
-108.2608684978
 10
417.7374821721
 20
-104.7356661614
 10
417.8341071109
 20
-101.3070320601
  0
LWPOLYLINE
  5
FE
330
1F
100
AcDbEntity
  8
0
  6
Continuous
 62
     7
370
    25
100
AcDbPolyline
 90
       62
 70
   128
 43
0.0
 10
592.6309034202
 20
-130.7793648969
 10
592.5345861451
 20
-128.5660533272
 10
592.2466553069
 20
-126.264997852
 10
591.7701630442
 20
-123.9005902318
 10
591.1101602935
 20
-121.4978937755
 10
590.273643248
 20
-119.0823776633
 10
589.2694791966
 20
-116.679646967
 10
588.1083125281
 20
-114.3151712296
 10
586.802451898
 20
-112.0140144822
 10
585.3657397537
 20
-109.8005695587
 10
583.8134056016
 20
-107.698299526
 10
582.1619045697
 20
-105.7294889693
 10
580.4287429799
 20
-103.9150077705
 10
578.6322927761
 20
-102.2740898815
 10
576.7915967774
 20
-100.8241294403
 10
574.9261668194
 20
-99.5804963881
 10
573.0557769236
 20
-98.5563735448
 10
571.2002536882
 20
-97.7626168672
 10
569.3792661211
 20
-97.2076403737
 10
567.6121171436
 20
-96.897326953
 10
565.9175389744
 20
-96.8349660046
 10
564.3134945637
 20
-97.0212185702
 10
562.8169871812
 20
-97.4541103261
 10
561.4438801776
 20
-98.1290525121
 10
560.2087288286
 20
-99.0388905731
 10
559.1246260458
 20
-100.1739799994
 10
558.2030635884
 20
-101.5222885605
 10
557.4538102477
 20
-103.0695238504
 10
556.8848082955
 20
-104.79928479
 10
556.5020892941
 20
-106.6932354831
 10
556.30971016
 20
-108.7312995813
 10
556.30971016
 20
-110.8918730979
 10
556.5020892941
 20
-113.1520534163
 10
556.8848082955
 20
-115.4878820629
 10
557.4538102477
 20
-117.8745986728
 10
558.2030635884
 20
-120.2869034563
 10
559.1246260458
 20
-122.6992253826
 10
560.2087288286
 20
-125.0859932391
 10
561.4438801776
 20
-127.4219066928
 10
562.8169871812
 20
-129.68220448
 10
564.3134945637
 20
-131.8429268818
 10
565.9175389744
 20
-133.8811697032
 10
567.6121171436
 20
-135.7753270634
 10
569.3792661211
 20
-137.505320423
 10
571.2002536882
 20
-139.0528114221
 10
573.0557769236
 20
-140.4013962711
 10
574.9261668194
 20
-141.5367796351
 10
576.7915967774
 20
-142.446926168
 10
578.6322927761
 20
-143.1221880902
 10
580.4287429799
 20
-143.5554074573
 10
582.1619045697
 20
-143.7419920362
 10
583.8134056016
 20
-143.6799639839
 10
585.3657397537
 20
-143.3699808134
 10
586.802451898
 20
-142.8153284232
 10
588.1083125281
 20
-142.0218862667
 10
589.2694791966
 20
-140.9980650281
 10
590.273643248
 20
-139.7547174674
 10
591.1101602935
 20
-138.3050233778
 10
591.7701630442
 20
-136.6643498774
 10
592.2466553069
 20
-134.8500885136
 10
592.5345861451
 20
-132.8814709079
 10
592.6309034202
 20
-130.7793648969
  0
LWPOLYLINE
  5
FF
330
1F
100
AcDbEntity
  8
0
  6
Continuous
 62
     7
370
    25
100
AcDbPolyline
 90
       68
 70
   128
 43
0.0
 10
596.732122751
 20
-133.1469484212
 10
596.6342509939
 20
-130.6818921749
 10
596.341495823
 20
-128.125498606
 10
595.8564299814
 20
-125.5002333932
 10
595.183316245
 20
-122.8291674614
 10
594.3280699616
 20
-120.1357742342
 10
593.2982070664
 20
-117.4437233481
 10
592.1027780313
 20
-114.776672643
 10
590.7522883299
 20
-112.1580602566
 10
589.258606114
 20
-109.6108986484
 10
587.6348579169
 20
-107.1575723665
 10
585.8953132959
 20
-104.8196413303
 10
584.0552594318
 20
-102.6176513618
 10
582.1308667842
 20
-100.5709536281
 10
580.1390469847
 20
-98.6975345824
 10
578.0973042173
 20
-97.0138578988
 10
576.0235813911
 20
-95.5347197883
 10
573.9361024566
 20
-94.27311897
 10
571.8532122539
 20
-93.2401424371
 10
569.7932152969
 20
-92.4448680246
 10
567.774214913
 20
-91.8942846326
 10
565.8139541501
 20
-91.5932308078
 10
563.9296598503
 20
-91.5443522219
 10
562.1378912597
 20
-91.7480784219
 10
560.454394505
 20
-92.2026190544
 10
558.8939642163
 20
-92.9039796001
 10
557.4703135111
 20
-93.8459964773
 10
556.1959534829
 20
-95.0203912078
 10
555.0820832534
 20
-96.4168431684
 10
554.1384915545
 20
-98.0230802892
 10
553.3734707036
 20
-99.8249869005
 10
552.7937437318
 20
-101.8067277823
 10
552.4044053003
 20
-103.9508873245
 10
552.2088769294
 20
-106.2386225758
 10
552.2088769294
 20
-108.6498288367
 10
552.4044053003
 20
-111.1633163398
 10
552.7937437318
 20
-113.7569964666
 10
553.3734707036
 20
-116.4080758628
 10
554.1384915545
 20
-119.0932567475
 10
555.0820832535
 20
-121.7889416544
 10
556.1959534829
 20
-124.4714408076
 10
557.4703135111
 20
-127.1171803082
 10
558.8939642163
 20
-129.7029093022
 10
560.454394505
 20
-132.2059043104
 10
562.1378912597
 20
-134.6041689226
 10
563.9296598503
 20
-136.876627103
 10
565.8139541501
 20
-139.0033084076
 10
567.774214913
 20
-140.9655234846
 10
569.7932152969
 20
-142.7460283173
 10
571.8532122539
 20
-144.3291757652
 10
573.9361024566
 20
-145.7010530716
 10
576.0235813911
 20
-146.8496041295
 10
578.0973042173
 20
-147.7647354308
 10
580.1390469847
 20
-148.4384047687
 10
582.1308667842
 20
-148.864691913
 10
584.0552594318
 20
-149.0398506367
 10
585.8953132959
 20
-148.9623416389
 10
587.6348579169
 20
-148.6328460713
 10
589.258606114
 20
-148.0542595528
 10
590.7522883299
 20
-147.2316667226
 10
592.1027780313
 20
-146.172296556
 10
593.2982070664
 20
-144.8854588361
 10
594.3280699616
 20
-143.3824623392
 10
595.183316245
 20
-141.6765154524
 10
595.8564299814
 20
-139.7826100983
 10
596.341495823
 20
-137.7173899853
 10
596.6342509939
 20
-135.499004342
 10
596.732122751
 20
-133.1469484212
  0
LWPOLYLINE
  5
100
330
1F
100
AcDbEntity
  8
0
  6
Continuous
 62
     7
370
    25
100
AcDbPolyline
 90
       18
 70
   128
 43
0.0
 10
386.2967875362
 20
-47.2065255955
 10
386.2945410633
 20
-47.1041557427
 10
386.1156005722
 20
-46.2930621811
 10
385.6574970742
 20
-45.519365919
 10
384.9389853804
 20
-44.8147421723
 10
383.9894814439
 20
-44.2080383199
 10
382.8478580674
 20
-43.7240928889
 10
381.5608534462
 20
-43.3827186621
 10
380.1811577006
 20
-43.1978915405
 10
378.7652557366
 20
-43.177178368
 10
377.3711147469
 20
-43.3214271445
 10
376.0558110274
 20
-43.624732308
 10
374.8731932671
 20
-44.0746765096
 10
373.8716779758
 20
-44.6528389807
 10
373.0922673074
 20
-45.3355496818
 10
372.5668704261
 20
-46.0948583567
 10
372.3169971421
 20
-46.899678819
 10
372.2967875362
 20
-47.2065255955
  0
ENDSEC
  0
SECTION
  2
OBJECTS
  0
DICTIONARY
  5
C
330
0
100
AcDbDictionary
281
     1
  3
ACAD_GROUP
350
D
  3
ACAD_LAYOUT
350
1A
  3
ACAD_MLINESTYLE
350
17
  3
ACAD_PLOTSETTINGS
350
19
  3
ACAD_PLOTSTYLENAME
350
E
  3
ACAD_SCALELIST
350
47
  3
DWGPROPS
350
101
  0
DICTIONARY
  5
D
102
{ACAD_REACTORS
330
C
102
}
330
C
100
AcDbDictionary
281
     1
  0
DICTIONARY
  5
1A
102
{ACAD_REACTORS
330
C
102
}
330
C
100
AcDbDictionary
281
     1
  3
Layout1
350
1E
  3
Layout2
350
26
  3
Model
350
22
  0
DICTIONARY
  5
17
102
{ACAD_REACTORS
330
C
102
}
330
C
100
AcDbDictionary
281
     1
  3
Standard
350
18
  0
DICTIONARY
  5
19
102
{ACAD_REACTORS
330
C
102
}
330
C
100
AcDbDictionary
281
     1
  0
ACDBDICTIONARYWDFLT
  5
E
102
{ACAD_REACTORS
330
C
102
}
330
C
100
AcDbDictionary
281
     1
  3
Normal
350
F
100
AcDbDictionaryWithDefault
340
F
  0
DICTIONARY
  5
47
102
{ACAD_REACTORS
330
C
102
}
330
C
100
AcDbDictionary
281
     1
  3
A0
350
48
  3
A1
350
49
  3
A2
350
4A
  3
A3
350
4B
  3
A4
350
4C
  3
A5
350
4D
  3
A6
350
4E
  3
A7
350
4F
  3
A8
350
50
  3
A9
350
51
  3
B0
350
52
  3
B1
350
53
  3
B2
350
54
  3
B3
350
55
  3
B4
350
56
  3
B5
350
57
  3
B6
350
58
  3
B7
350
59
  3
B8
350
5A
  3
B9
350
5B
  3
C0
350
5C
  3
C1
350
5D
  3
C2
350
5E
  3
C3
350
5F
  3
C4
350
60
  3
C5
350
61
  3
C6
350
62
  3
C7
350
63
  3
C8
350
64
  3
C9
350
65
  3
D0
350
66
  3
D1
350
67
  3
D2
350
68
  0
XRECORD
  5
101
102
{ACAD_REACTORS
330
C
102
}
330
C
100
AcDbXrecord
280
     1
  1
DWGPROPS COOKIE
  2

  3

  4

  6

  7

  8
b.kav
  9

300
=
301
=
302
=
303
=
304
=
305
=
306
=
307
=
308
=
309
=
 40
0.0
 41
2459741.481152535
 42
2459741.48115272
  1

 90
        0
  0
LAYOUT
  5
1E
102
{ACAD_REACTORS
330
1A
102
}
330
1A
100
AcDbPlotSettings
  1

  2
none_device
  4

  6

 40
0.0
 41
0.0
 42
0.0
 43
0.0
 44
0.0
 45
0.0
 46
0.0
 47
0.0
 48
0.0
 49
0.0
140
0.0
141
0.0
142
1.0
143
1.0
 70
   688
 72
     1
 73
     0
 74
     5
  7

 75
    16
147
1.0
148
0.0
149
0.0
100
AcDbLayout
  1
Layout1
 70
     1
 71
     1
 10
0.0
 20
0.0
 11
420.0
 21
297.0
 12
0.0
 22
0.0
 32
0.0
 14
1.0000000000E+20
 24
1.0000000000E+20
 34
1.0000000000E+20
 15
-1.0000000000E+20
 25
-1.0000000000E+20
 35
-1.0000000000E+20
146
0.0
 13
0.0
 23
0.0
 33
0.0
 16
1.0
 26
0.0
 36
0.0
 17
0.0
 27
1.0
 37
0.0
 76
     0
330
1B
  0
LAYOUT
  5
26
102
{ACAD_REACTORS
330
1A
102
}
330
1A
100
AcDbPlotSettings
  1

  2
none_device
  4

  6

 40
0.0
 41
0.0
 42
0.0
 43
0.0
 44
0.0
 45
0.0
 46
0.0
 47
0.0
 48
0.0
 49
0.0
140
0.0
141
0.0
142
1.0
143
1.0
 70
   688
 72
     1
 73
     0
 74
     5
  7

 75
    16
147
1.0
148
0.0
149
0.0
100
AcDbLayout
  1
Layout2
 70
     1
 71
     2
 10
0.0
 20
0.0
 11
0.0
 21
0.0
 12
0.0
 22
0.0
 32
0.0
 14
0.0
 24
0.0
 34
0.0
 15
0.0
 25
0.0
 35
0.0
146
0.0
 13
0.0
 23
0.0
 33
0.0
 16
1.0
 26
0.0
 36
0.0
 17
0.0
 27
1.0
 37
0.0
 76
     0
330
23
  0
LAYOUT
  5
22
102
{ACAD_REACTORS
330
1A
102
}
330
1A
100
AcDbPlotSettings
  1

  2
none_device
  4
Letter_(8.50_x_11.00_Inches)
  6

 40
6.35
 41
6.35
 42
6.35000508
 43
6.35000508
 44
215.9
 45
279.4
 46
0.0
 47
0.0
 48
0.0
 49
0.0
140
0.0
141
0.0
142
1.0
143
1.0
 70
  1712
 72
     1
 73
     0
 74
     0
  7

 75
     0
147
1.0
148
0.0
149
0.0
100
AcDbLayout
  1
Model
 70
     1
 71
     0
 10
0.0
 20
0.0
 11
279.4
 21
215.9
 12
0.0
 22
0.0
 32
0.0
 14
0.0
 24
0.0
 34
0.0
 15
279.4
 25
215.9
 35
0.0
146
0.0
 13
0.0
 23
0.0
 33
0.0
 16
1.0
 26
0.0
 36
0.0
 17
0.0
 27
1.0
 37
0.0
 76
     0
330
1F
331
29
  0
MLINESTYLE
  5
18
102
{ACAD_REACTORS
330
17
102
}
330
17
100
AcDbMlineStyle
  2
Standard
 70
     0
  3

 62
   256
 51
90.0
 52
90.0
 71
     2
 49
0.5
 62
   256
  6
BYLAYER
 49
-0.5
 62
   256
  6
BYLAYER
  0
ACDBPLACEHOLDER
  5
F
102
{ACAD_REACTORS
330
E
102
}
330
E
  0
SCALE
  5
48
102
{ACAD_REACTORS
330
47
102
}
330
47
100
AcDbScale
 70
     0
300
1:1
140
1.0
141
1.0
290
     1
  0
SCALE
  5
49
102
{ACAD_REACTORS
330
47
102
}
330
47
100
AcDbScale
 70
     0
300
1:2
140
1.0
141
2.0
290
     0
  0
SCALE
  5
4A
102
{ACAD_REACTORS
330
47
102
}
330
47
100
AcDbScale
 70
     0
300
1:4
140
1.0
141
4.0
290
     0
  0
SCALE
  5
4B
102
{ACAD_REACTORS
330
47
102
}
330
47
100
AcDbScale
 70
     0
300
1:5
140
1.0
141
5.0
290
     0
  0
SCALE
  5
4C
102
{ACAD_REACTORS
330
47
102
}
330
47
100
AcDbScale
 70
     0
300
1:8
140
1.0
141
8.0
290
     0
  0
SCALE
  5
4D
102
{ACAD_REACTORS
330
47
102
}
330
47
100
AcDbScale
 70
     0
300
1:10
140
1.0
141
10.0
290
     0
  0
SCALE
  5
4E
102
{ACAD_REACTORS
330
47
102
}
330
47
100
AcDbScale
 70
     0
300
1:16
140
1.0
141
16.0
290
     0
  0
SCALE
  5
4F
102
{ACAD_REACTORS
330
47
102
}
330
47
100
AcDbScale
 70
     0
300
1:20
140
1.0
141
20.0
290
     0
  0
SCALE
  5
50
102
{ACAD_REACTORS
330
47
102
}
330
47
100
AcDbScale
 70
     0
300
1:30
140
1.0
141
30.0
290
     0
  0
SCALE
  5
51
102
{ACAD_REACTORS
330
47
102
}
330
47
100
AcDbScale
 70
     0
300
1:40
140
1.0
141
40.0
290
     0
  0
SCALE
  5
52
102
{ACAD_REACTORS
330
47
102
}
330
47
100
AcDbScale
 70
     0
300
1:50
140
1.0
141
50.0
290
     0
  0
SCALE
  5
53
102
{ACAD_REACTORS
330
47
102
}
330
47
100
AcDbScale
 70
     0
300
1:100
140
1.0
141
100.0
290
     0
  0
SCALE
  5
54
102
{ACAD_REACTORS
330
47
102
}
330
47
100
AcDbScale
 70
     0
300
2:1
140
2.0
141
1.0
290
     0
  0
SCALE
  5
55
102
{ACAD_REACTORS
330
47
102
}
330
47
100
AcDbScale
 70
     0
300
4:1
140
4.0
141
1.0
290
     0
  0
SCALE
  5
56
102
{ACAD_REACTORS
330
47
102
}
330
47
100
AcDbScale
 70
     0
300
8:1
140
8.0
141
1.0
290
     0
  0
SCALE
  5
57
102
{ACAD_REACTORS
330
47
102
}
330
47
100
AcDbScale
 70
     0
300
10:1
140
10.0
141
1.0
290
     0
  0
SCALE
  5
58
102
{ACAD_REACTORS
330
47
102
}
330
47
100
AcDbScale
 70
     0
300
100:1
140
100.0
141
1.0
290
     0
  0
SCALE
  5
59
102
{ACAD_REACTORS
330
47
102
}
330
47
100
AcDbScale
 70
     0
300
1/128" = 1'-0"
140
0.0078125
141
12.0
290
     0
  0
SCALE
  5
5A
102
{ACAD_REACTORS
330
47
102
}
330
47
100
AcDbScale
 70
     0
300
1/64" = 1'-0"
140
0.015625
141
12.0
290
     0
  0
SCALE
  5
5B
102
{ACAD_REACTORS
330
47
102
}
330
47
100
AcDbScale
 70
     0
300
1/32" = 1'-0"
140
0.03125
141
12.0
290
     0
  0
SCALE
  5
5C
102
{ACAD_REACTORS
330
47
102
}
330
47
100
AcDbScale
 70
     0
300
1/16" = 1'-0"
140
0.0625
141
12.0
290
     0
  0
SCALE
  5
5D
102
{ACAD_REACTORS
330
47
102
}
330
47
100
AcDbScale
 70
     0
300
3/32" = 1'-0"
140
0.09375
141
12.0
290
     0
  0
SCALE
  5
5E
102
{ACAD_REACTORS
330
47
102
}
330
47
100
AcDbScale
 70
     0
300
1/8" = 1'-0"
140
0.125
141
12.0
290
     0
  0
SCALE
  5
5F
102
{ACAD_REACTORS
330
47
102
}
330
47
100
AcDbScale
 70
     0
300
3/16" = 1'-0"
140
0.1875
141
12.0
290
     0
  0
SCALE
  5
60
102
{ACAD_REACTORS
330
47
102
}
330
47
100
AcDbScale
 70
     0
300
1/4" = 1'-0"
140
0.25
141
12.0
290
     0
  0
SCALE
  5
61
102
{ACAD_REACTORS
330
47
102
}
330
47
100
AcDbScale
 70
     0
300
3/8" = 1'-0"
140
0.375
141
12.0
290
     0
  0
SCALE
  5
62
102
{ACAD_REACTORS
330
47
102
}
330
47
100
AcDbScale
 70
     0
300
1/2" = 1'-0"
140
0.5
141
12.0
290
     0
  0
SCALE
  5
63
102
{ACAD_REACTORS
330
47
102
}
330
47
100
AcDbScale
 70
     0
300
3/4" = 1'-0"
140
0.75
141
12.0
290
     0
  0
SCALE
  5
64
102
{ACAD_REACTORS
330
47
102
}
330
47
100
AcDbScale
 70
     0
300
1" = 1'-0"
140
1.0
141
12.0
290
     0
  0
SCALE
  5
65
102
{ACAD_REACTORS
330
47
102
}
330
47
100
AcDbScale
 70
     0
300
1-1/2" = 1'-0"
140
1.5
141
12.0
290
     0
  0
SCALE
  5
66
102
{ACAD_REACTORS
330
47
102
}
330
47
100
AcDbScale
 70
     0
300
3" = 1'-0"
140
3.0
141
12.0
290
     0
  0
SCALE
  5
67
102
{ACAD_REACTORS
330
47
102
}
330
47
100
AcDbScale
 70
     0
300
6" = 1'-0"
140
6.0
141
12.0
290
     0
  0
SCALE
  5
68
102
{ACAD_REACTORS
330
47
102
}
330
47
100
AcDbScale
 70
     0
300
1'-0" = 1'-0"
140
12.0
141
12.0
290
     0
  0
ENDSEC
  0
EOF
